I Wouldn’t Mind Chords/Tabs.


Here are the chords to “I wouldn’t Mind” via Guitaretab.

NOTE: Guitar 2 is ONLY in the intro and verse.

And if you don't understand any of what i said except the tabs and chords, just 
listen to the song,
and you'll get what i mean. :P

Intro:

Guitar 1(x2):

Am  F  C  G

Guitar 2 (starts playing when guitar 1 starts second time)(x1):
E|-----------------3--------3-----------3--------------0--------|
B|---------0h1--------1--------1--------------1-----------1-----|
G|------2-------2--------2-----------2-----2-----2--------------|
D|--------------------------------------------------------------|
A|---0----------------------------3-----------------2-----------|
E|--------------------------------------------------------------|

Verse:

Guitar 1:
Play intro 4 times, end on C, but play G when Guitar 2 plays G.

Guitar 2:
Play intro riff 4 times, then play this:
E|----------------3--------3--------0--1--3~----------|
B|--------0h1--------1--------1-----------3~----------|
G|-----2-------2--------2-----------------0~----------|
D|----------------------------------------0~----------|
A|--0----------------------------3--------2~----------|
E|----------------------------------------3~----------|

Pre-chorus:

E|--------0-----0--------0-----0--------0-----0--------3-----0-----|
B|--------1-----1--------1-----1--------1-----1--------1-----1-----|
G|-----------------------------------------------------------------|
D|-----------------------------------------------3--3-----3--------|
A|--0--0-----0-----2--2-----2-----3--3-----3-----------------------|
E|-----------------------------------------------------------------|

E|--------0-----0--------0-----0--------0-----0--3~----------------|
B|--------1-----1--------1-----1--------1-----1--3~----------------|
G|-----------------------------------------------0~----------------|
D|-----------------------------------------------0~----------------|
A|--0--0-----0-----2--2-----2-----3--3-----3-----2~----------------|
E|-----------------------------------------------3~----------------|

Chorus:

F  C  Am  G (x2)

Repeat Intro chords once, No riff.

Repeat Verse, but instead of playing 4 times, it's 5 times. Then end on the end riff.

Repeat Pre-chorus.

Repeat chorus, but repeat chords 4 times instead of twice.

Bridge:
E|--------3-----------3-----------3-----------3---------------|
B|-----------1-----------1-----------1-----------1------------|
G|-----2-----------2-----------2-----------2------------------|
D|--3-----------2-----------0---------------------------------|
A|--------------------------------------3---------------------|
E|------------------------------------------------------------|

Repeat bridge riff 3 times, then end bridge on this:

E|--------3-----------3-----------3---------3-----------------|
B|-----------1-----------1-----------1------1-----------------|
G|-----2-----------2-----------2------------0-----------------|
D|--3-----------2-----------0---------------2-----------------|
A|------------------------------------------3-----------------|
E|------------------------------------------x-----------------|

Repeat chorus, but repeat chords 4 times instead of twice.

END

[Link]

Advertisements

3 thoughts on “I Wouldn’t Mind Chords/Tabs.”

Leave a Reply

Fill in your details below or click an icon to log in:

WordPress.com Logo

You are commenting using your WordPress.com account. Log Out /  Change )

Google+ photo

You are commenting using your Google+ account. Log Out /  Change )

Twitter picture

You are commenting using your Twitter account. Log Out /  Change )

Facebook photo

You are commenting using your Facebook account. Log Out /  Change )

w

Connecting to %s

This site uses Akismet to reduce spam. Learn how your comment data is processed.